ISO-10303-21;
HEADER;
FILE_DESCRIPTION (( 'STEP AP203' ),
    '1' );
FILE_NAME ('End Cap SDR11_001 117 0140 0090.step',
    '2019-12-16T11:41:09',
    ( '' ),
    ( '' ),
    'SwSTEP 2.0',
    'SolidWorks 2019',
    '' );
FILE_SCHEMA (( 'CONFIG_CONTROL_DESIGN' ));
ENDSEC;

DATA;
#1 = EDGE_LOOP ( 'NONE', ( #67, #65, #61 ) ) ;
#2 = DIRECTION ( 'NONE',  ( -0.0000000000000000000, -1.000000000000000000, -0.0000000000000000000 ) ) ;
#3 = VERTEX_POINT ( 'NONE', #277 ) ;
#4 = PLANE ( 'NONE',  #200 ) ;
#5 = ORIENTED_EDGE ( 'NONE', *, *, #82, .T. ) ;
#6 = CARTESIAN_POINT ( 'NONE',  ( -2.160526485124692509E-14, 84.86845444767860158, 0.0000000000000000000 ) ) ;
#7 = ORIENTED_EDGE ( 'NONE', *, *, #250, .T. ) ;
#8 = DIRECTION ( 'NONE',  ( -0.0000000000000000000, -1.000000000000000000, -0.0000000000000000000 ) ) ;
#9 = ORIENTED_EDGE ( 'NONE', *, *, #139, .T. ) ;
#10 = DIRECTION ( 'NONE',  ( 1.000000000000000000, 0.0000000000000000000, -1.224646799147353207E-16 ) ) ;
#11 = ORIENTED_EDGE ( 'NONE', *, *, #306, .F. ) ;
#12 = DIRECTION ( 'NONE',  ( 0.0000000000000000000, 0.0000000000000000000, -1.000000000000000000 ) ) ;
#13 =( GEOMETRIC_REPRESENTATION_CONTEXT ( 3 ) GLOBAL_UNCERTAINTY_ASSIGNED_CONTEXT ( ( #247 ) ) GLOBAL_UNIT_ASSIGNED_CONTEXT ( ( #270, #254, #235 ) ) REPRESENTATION_CONTEXT ( 'NONE', 'WORKASPACE' ) );
#14 = DIRECTION ( 'NONE',  ( -0.0000000000000000000, -1.000000000000000000, -0.0000000000000000000 ) ) ;
#15 = DIRECTION ( 'NONE',  ( 0.0000000000000000000, 0.0000000000000000000, 1.000000000000000000 ) ) ;
#16 = AXIS2_PLACEMENT_3D ( 'NONE', #257, #18, #138 ) ;
#17 = ORGANIZATION ( 'BELÝRTÝLMEMÝÞ', 'BELÝRTÝLMEMÝÞ', '' ) ;
#18 = DIRECTION ( 'NONE',  ( 0.0000000000000000000, 0.0000000000000000000, 1.000000000000000000 ) ) ;
#19 = DATE_AND_TIME ( #258, #64 ) ;
#20 = DATE_AND_TIME ( #259, #307 ) ;
#21 = PERSON_AND_ORGANIZATION ( #101, #17 ) ;
#22 = ORIENTED_EDGE ( 'NONE', *, *, #78, .F. ) ;
#23 = ORIENTED_EDGE ( 'NONE', *, *, #119, .F. ) ;
#24 = ADVANCED_BREP_SHAPE_REPRESENTATION ( 'End Cap SDR11_001 117 0140 0090', ( #215, #16 ), #13 ) ;
#25 = ORIENTED_EDGE ( 'NONE', *, *, #108, .F. ) ;
#26 = DIRECTION ( 'NONE',  ( 0.0000000000000000000, 0.0000000000000000000, -1.000000000000000000 ) ) ;
#27 = ORIENTED_EDGE ( 'NONE', *, *, #52, .F. ) ;
#28 = DIRECTION ( 'NONE',  ( -0.0000000000000000000, -1.000000000000000000, -0.0000000000000000000 ) ) ;
#29 = ORIENTED_EDGE ( 'NONE', *, *, #82, .F. ) ;
#30 = CARTESIAN_POINT ( 'NONE',  ( 0.0000000000000000000, 79.00000000000001421, 0.0000000000000000000 ) ) ;
#31 = DESIGN_CONTEXT ( 'detailed design', #60, 'design' ) ;
#32 = VECTOR ( 'NONE', #286, 1000.000000000000000 ) ;
#33 = ORIENTED_EDGE ( 'NONE', *, *, #78, .T. ) ;
#34 = CARTESIAN_POINT ( 'NONE',  ( 0.0000000000000000000, 84.86845444767860158, -44.99999999999998579 ) ) ;
#35 = ORIENTED_EDGE ( 'NONE', *, *, #52, .T. ) ;
#36 = DIRECTION ( 'NONE',  ( -0.0000000000000000000, -1.000000000000000000, -0.0000000000000000000 ) ) ;
#37 = EDGE_LOOP ( 'NONE', ( #51, #35, #33, #29 ) ) ;
#38 = CARTESIAN_POINT ( 'NONE',  ( 0.0000000000000000000, 79.00000000000001421, 0.0000000000000000000 ) ) ;
#39 = EDGE_CURVE ( 'NONE', #124, #3, #234, .T. ) ;
#40 = AXIS2_PLACEMENT_3D ( 'NONE', #136, #232, #302 ) ;
#41 = DIRECTION ( 'NONE',  ( 0.0000000000000000000, 0.0000000000000000000, 1.000000000000000000 ) ) ;
#42 = DIRECTION ( 'NONE',  ( -0.0000000000000000000, -1.000000000000000000, -0.0000000000000000000 ) ) ;
#43 = APPLICATION_CONTEXT ( 'configuration controlled 3d designs of mechanical parts and assemblies' ) ;
#44 = SECURITY_CLASSIFICATION ( '', '', #290 ) ;
#45 = APPROVAL_ROLE ( '' ) ;
#46 = PRODUCT_RELATED_PRODUCT_CATEGORY ( 'detail', '', ( #271 ) ) ;
#47 = APPROVAL_ROLE ( '' ) ;
#48 = CALENDAR_DATE ( 2019, 16, 12 ) ;
#49 = CIRCLE ( 'NONE', #40, 44.99999999999998579 ) ;
#50 = AXIS2_PLACEMENT_3D ( 'NONE', #185, #253, #15 ) ;
#51 = ORIENTED_EDGE ( 'NONE', *, *, #190, .F. ) ;
#52 = EDGE_CURVE ( 'NONE', #120, #117, #147, .T. ) ;
#53 = ORIENTED_EDGE ( 'NONE', *, *, #250, .F. ) ;
#54 = ORIENTED_EDGE ( 'NONE', *, *, #39, .F. ) ;
#55 = CIRCLE ( 'NONE', #50, 126.8004375958748682 ) ;
#56 = ORIENTED_EDGE ( 'NONE', *, *, #306, .T. ) ;
#57 = DIRECTION ( 'NONE',  ( 0.0000000000000000000, 0.0000000000000000000, -1.000000000000000000 ) ) ;
#58 = ORIENTED_EDGE ( 'NONE', *, *, #292, .T. ) ;
#59 = CARTESIAN_POINT ( 'NONE',  ( 0.0000000000000000000, 0.0000000000000000000, 0.0000000000000000000 ) ) ;
#60 = APPLICATION_CONTEXT ( 'configuration controlled 3d designs of mechanical parts and assemblies' ) ;
#61 = ORIENTED_EDGE ( 'NONE', *, *, #292, .F. ) ;
#62 = CARTESIAN_POINT ( 'NONE',  ( 0.0000000000000000000, 0.0000000000000000000, 0.0000000000000000000 ) ) ;
#63 = AXIS2_PLACEMENT_3D ( 'NONE', #268, #42, #157 ) ;
#64 = LOCAL_TIME ( 14, 41, 9.000000000000000000, #160 ) ;
#65 = ORIENTED_EDGE ( 'NONE', *, *, #159, .T. ) ;
#66 = FACE_OUTER_BOUND ( 'NONE', #37, .T. ) ;
#67 = ORIENTED_EDGE ( 'NONE', *, *, #206, .F. ) ;
#68 = CARTESIAN_POINT ( 'NONE',  ( -2.385244779468109755E-14, 93.06845444767861864, 0.0000000000000000000 ) ) ;
#69 = EDGE_CURVE ( 'NONE', #116, #120, #224, .T. ) ;
#70 = VERTEX_POINT ( 'NONE', #87 ) ;
#71 = ORIENTED_EDGE ( 'NONE', *, *, #269, .F. ) ;
#72 = DIRECTION ( 'NONE',  ( -0.0000000000000000000, -1.000000000000000000, -0.0000000000000000000 ) ) ;
#73 = TOROIDAL_SURFACE ( 'NONE', #63, -1.351655838829467937, 135.0000000000000284 ) ;
#74 = AXIS2_PLACEMENT_3D ( 'NONE', #104, #207, #285 ) ;
#75 = APPLICATION_PROTOCOL_DEFINITION ( 'international standard', 'config_control_design', 1994, #60 ) ;
#76 = TOROIDAL_SURFACE ( 'NONE', #74, -1.351655838829467937, 126.8004375958748682 ) ;
#77 = DATE_TIME_ROLE ( 'creation_date' ) ;
#78 = EDGE_CURVE ( 'NONE', #117, #70, #218, .T. ) ;
#79 = PERSON_AND_ORGANIZATION ( #101, #17 ) ;
#80 = SHAPE_DEFINITION_REPRESENTATION ( #202, #24 ) ;
#81 = VECTOR ( 'NONE', #14, 1000.000000000000000 ) ;
#82 = EDGE_CURVE ( 'NONE', #131, #70, #172, .T. ) ;
#83 = EDGE_LOOP ( 'NONE', ( #166, #162, #94 ) ) ;
#84 = ORIENTED_EDGE ( 'NONE', *, *, #69, .T. ) ;
#85 = EDGE_LOOP ( 'NONE', ( #99, #102, #113 ) ) ;
#86 = ORIENTED_EDGE ( 'NONE', *, *, #190, .T. ) ;
#87 = CARTESIAN_POINT ( 'NONE',  ( 0.0000000000000000000, 0.0000000000000000000, -36.79999999999999716 ) ) ;
#88 = AXIS2_PLACEMENT_3D ( 'NONE', #204, #267, #41 ) ;
#89 = EDGE_LOOP ( 'NONE', ( #58, #56, #54, #53 ) ) ;
#90 = CARTESIAN_POINT ( 'NONE',  ( 5.510910596163088767E-15, 84.86845444767860158, 44.99999999999998579 ) ) ;
#91 = ADVANCED_FACE ( 'NONE', ( #149, #245 ), #4, .T. ) ;
#92 = VERTEX_POINT ( 'NONE', #90 ) ;
#93 = DIRECTION ( 'NONE',  ( 0.0000000000000000000, 0.0000000000000000000, -1.000000000000000000 ) ) ;
#94 = ORIENTED_EDGE ( 'NONE', *, *, #139, .F. ) ;
#95 = CARTESIAN_POINT ( 'NONE',  ( 0.0000000000000000000, 0.0000000000000000000, 0.0000000000000000000 ) ) ;
#96 = ADVANCED_FACE ( 'NONE', ( #197 ), #279, .F. ) ;
#97 = CIRCLE ( 'NONE', #88, 135.0000000000000284 ) ;
#98 = APPROVAL_PERSON_ORGANIZATION ( #21, #274, #242 ) ;
#99 = ORIENTED_EDGE ( 'NONE', *, *, #69, .F. ) ;
#100 = CARTESIAN_POINT ( 'NONE',  ( 0.0000000000000000000, 0.0000000000000000000, 0.0000000000000000000 ) ) ;
#101 = PERSON ( 'BELÝRTÝLMEMÝÞ', 'BELÝRTÝLMEMÝÞ', 'BELÝRTÝLMEMÝÞ', ('BELÝRTÝLMEMÝÞ'), ('BELÝRTÝLMEMÝÞ'), ('BELÝRTÝLMEMÝÞ') ) ;
#102 = ORIENTED_EDGE ( 'NONE', *, *, #269, .T. ) ;
#103 = ORIENTED_EDGE ( 'NONE', *, *, #39, .T. ) ;
#104 = CARTESIAN_POINT ( 'NONE',  ( 0.0000000000000000000, -41.92477881419036123, 0.0000000000000000000 ) ) ;
#105 = AXIS2_PLACEMENT_3D ( 'NONE', #284, #72, #180 ) ;
#106 = LINE ( 'NONE', #210, #32 ) ;
#107 = TOROIDAL_SURFACE ( 'NONE', #105, -1.351655838829467937, 135.0000000000000284 ) ;
#108 = EDGE_CURVE ( 'NONE', #131, #120, #196, .T. ) ;
#109 = COORDINATED_UNIVERSAL_TIME_OFFSET ( 3, 0, .AHEAD. ) ;
#110 = AXIS2_PLACEMENT_3D ( 'NONE', #38, #134, #230 ) ;
#111 = PERSON_AND_ORGANIZATION ( #101, #17 ) ;
#112 = CALENDAR_DATE ( 2019, 16, 12 ) ;
#113 = ORIENTED_EDGE ( 'NONE', *, *, #108, .T. ) ;
#114 = CIRCLE ( 'NONE', #110, 36.79999999999999716 ) ;
#115 = LOCAL_TIME ( 14, 41, 9.000000000000000000, #109 ) ;
#116 = VERTEX_POINT ( 'NONE', #6 ) ;
#117 = VERTEX_POINT ( 'NONE', #125 ) ;
#118 = CARTESIAN_POINT ( 'NONE',  ( -1.655300996571338659E-16, -41.92477881419036123, -1.351655838829467937 ) ) ;
#119 = EDGE_CURVE ( 'NONE', #70, #117, #183, .T. ) ;
#120 = VERTEX_POINT ( 'NONE', #198 ) ;
#121 = CARTESIAN_POINT ( 'NONE',  ( 36.79999999999999716, 0.0000000000000000000, 0.0000000000000000000 ) ) ;
#122 = AXIS2_PLACEMENT_3D ( 'NONE', #154, #251, #12 ) ;
#123 = AXIS2_PLACEMENT_3D ( 'NONE', #100, #203, #283 ) ;
#124 = VERTEX_POINT ( 'NONE', #280 ) ;
#125 = CARTESIAN_POINT ( 'NONE',  ( 4.506700220862259290E-15, 0.0000000000000000000, 36.79999999999999716 ) ) ;
#126 = EDGE_LOOP ( 'NONE', ( #11, #9, #7, #168 ) ) ;
#127 = DIRECTION ( 'NONE',  ( 0.0000000000000000000, 0.0000000000000000000, -1.000000000000000000 ) ) ;
#128 = EDGE_CURVE ( 'NONE', #3, #124, #171, .T. ) ;
#129 = VERTEX_POINT ( 'NONE', #34 ) ;
#130 = DIRECTION ( 'NONE',  ( -1.224646799147353207E-16, 0.0000000000000000000, -1.000000000000000000 ) ) ;
#131 = VERTEX_POINT ( 'NONE', #151 ) ;
#132 = TOROIDAL_SURFACE ( 'NONE', #122, -1.351655838829467937, 126.8004375958748682 ) ;
#133 = EDGE_LOOP ( 'NONE', ( #23, #22 ) ) ;
#134 = DIRECTION ( 'NONE',  ( -0.0000000000000000000, -1.000000000000000000, -0.0000000000000000000 ) ) ;
#135 = FACE_OUTER_BOUND ( 'NONE', #85, .T. ) ;
#136 = CARTESIAN_POINT ( 'NONE',  ( 0.0000000000000000000, 84.86845444767860158, 0.0000000000000000000 ) ) ;
#137 = AXIS2_PLACEMENT_3D ( 'NONE', #249, #10, #130 ) ;
#138 = DIRECTION ( 'NONE',  ( 1.000000000000000000, 0.0000000000000000000, 0.0000000000000000000 ) ) ;
#139 = EDGE_CURVE ( 'NONE', #92, #129, #164, .T. ) ;
#140 = APPROVAL_DATE_TIME ( #19, #186 ) ;
#141 = APPROVAL_DATE_TIME ( #20, #211 ) ;
#142 = AXIS2_PLACEMENT_3D ( 'NONE', #266, #36, #153 ) ;
#143 = CIRCLE ( 'NONE', #137, 135.0000000000000284 ) ;
#144 = APPROVAL_STATUS ( 'not_yet_approved' ) ;
#145 = AXIS2_PLACEMENT_3D ( 'NONE', #95, #199, #281 ) ;
#146 = CC_DESIGN_APPROVAL ( #274, ( #44 ) ) ;
#147 = LINE ( 'NONE', #244, #228 ) ;
#148 = ADVANCED_FACE ( 'NONE', ( #226 ), #297, .T. ) ;
#149 = FACE_OUTER_BOUND ( 'NONE', #236, .T. ) ;
#150 = DIRECTION ( 'NONE',  ( -0.0000000000000000000, -1.000000000000000000, -0.0000000000000000000 ) ) ;
#151 = CARTESIAN_POINT ( 'NONE',  ( 0.0000000000000000000, 79.00000000000001421, -36.79999999999999716 ) ) ;
#152 = ADVANCED_FACE ( 'NONE', ( #66 ), #177, .F. ) ;
#153 = DIRECTION ( 'NONE',  ( 0.0000000000000000000, 0.0000000000000000000, -1.000000000000000000 ) ) ;
#154 = CARTESIAN_POINT ( 'NONE',  ( 0.0000000000000000000, -41.92477881419036123, 0.0000000000000000000 ) ) ;
#155 = AXIS2_PLACEMENT_3D ( 'NONE', #248, #8, #127 ) ;
#156 = LINE ( 'NONE', #252, #81 ) ;
#157 = DIRECTION ( 'NONE',  ( 0.0000000000000000000, 0.0000000000000000000, -1.000000000000000000 ) ) ;
#158 = APPROVAL_PERSON_ORGANIZATION ( #188, #211, #47 ) ;
#159 = EDGE_CURVE ( 'NONE', #179, #92, #143, .T. ) ;
#160 = COORDINATED_UNIVERSAL_TIME_OFFSET ( 3, 0, .AHEAD. ) ;
#161 = COORDINATED_UNIVERSAL_TIME_OFFSET ( 3, 0, .AHEAD. ) ;
#162 = ORIENTED_EDGE ( 'NONE', *, *, #206, .T. ) ;
#163 = DATE_AND_TIME ( #48, #243 ) ;
#164 = CIRCLE ( 'NONE', #155, 44.99999999999998579 ) ;
#165 = AXIS2_PLACEMENT_3D ( 'NONE', #62, #175, #265 ) ;
#166 = ORIENTED_EDGE ( 'NONE', *, *, #159, .F. ) ;
#167 = ADVANCED_FACE ( 'NONE', ( #227 ), #298, .T. ) ;
#168 = ORIENTED_EDGE ( 'NONE', *, *, #128, .F. ) ;
#169 = CARTESIAN_POINT ( 'NONE',  ( 0.0000000000000000000, 0.0000000000000000000, 0.0000000000000000000 ) ) ;
#170 = CC_DESIGN_PERSON_AND_ORGANIZATION_ASSIGNMENT ( #212, #288, ( #271 ) ) ;
#171 = CIRCLE ( 'NONE', #165, 45.00000000000000711 ) ;
#172 = LINE ( 'NONE', #263, #208 ) ;
#173 = DIRECTION ( 'NONE',  ( -0.0000000000000000000, -1.000000000000000000, -0.0000000000000000000 ) ) ;
#174 = ORIENTED_EDGE ( 'NONE', *, *, #128, .T. ) ;
#175 = DIRECTION ( 'NONE',  ( -0.0000000000000000000, -1.000000000000000000, -0.0000000000000000000 ) ) ;
#176 = AXIS2_PLACEMENT_3D ( 'NONE', #225, #296, #93 ) ;
#177 = CYLINDRICAL_SURFACE ( 'NONE', #142, 36.79999999999999716 ) ;
#178 = FACE_OUTER_BOUND ( 'NONE', #194, .T. ) ;
#179 = VERTEX_POINT ( 'NONE', #68 ) ;
#180 = DIRECTION ( 'NONE',  ( 0.0000000000000000000, 0.0000000000000000000, -1.000000000000000000 ) ) ;
#181 = PRODUCT_DEFINITION ( 'BÝLÝNMEYEN', '', #282, #31 ) ;
#182 = ADVANCED_FACE ( 'NONE', ( #178 ), #132, .F. ) ;
#183 = CIRCLE ( 'NONE', #176, 36.79999999999999716 ) ;
#184 = AXIS2_PLACEMENT_3D ( 'NONE', #30, #150, #246 ) ;
#185 = CARTESIAN_POINT ( 'NONE',  ( 0.0000000000000000000, -41.92477881419036123, 1.351655838829467937 ) ) ;
#186 = APPROVAL ( #273, 'BELÝRTÝLMEMÝÞ' ) ;
#187 = PERSON_AND_ORGANIZATION ( #101, #17 ) ;
#188 = PERSON_AND_ORGANIZATION ( #101, #17 ) ;
#189 = PERSON_AND_ORGANIZATION_ROLE ( 'classification_officer' ) ;
#190 = EDGE_CURVE ( 'NONE', #120, #131, #114, .T. ) ;
#191 = AXIS2_PLACEMENT_3D ( 'NONE', #59, #173, #264 ) ;
#192 = CC_DESIGN_PERSON_AND_ORGANIZATION_ASSIGNMENT ( #238, #303, ( #181 ) ) ;
#193 = ADVANCED_FACE ( 'NONE', ( #300 ), #107, .T. ) ;
#194 = EDGE_LOOP ( 'NONE', ( #71, #84, #86 ) ) ;
#195 = CARTESIAN_POINT ( 'NONE',  ( 0.0000000000000000000, 0.0000000000000000000, 0.0000000000000000000 ) ) ;
#196 = CIRCLE ( 'NONE', #184, 36.79999999999999716 ) ;
#197 = FACE_OUTER_BOUND ( 'NONE', #293, .T. ) ;
#198 = CARTESIAN_POINT ( 'NONE',  ( 4.506700220862259290E-15, 79.00000000000001421, 36.79999999999999716 ) ) ;
#199 = DIRECTION ( 'NONE',  ( -0.0000000000000000000, -1.000000000000000000, -0.0000000000000000000 ) ) ;
#200 = AXIS2_PLACEMENT_3D ( 'NONE', #121, #222, #295 ) ;
#201 = CC_DESIGN_APPROVAL ( #211, ( #282 ) ) ;
#202 = PRODUCT_DEFINITION_SHAPE ( 'NONE', 'NONE',  #181 ) ;
#203 = DIRECTION ( 'NONE',  ( -0.0000000000000000000, -1.000000000000000000, -0.0000000000000000000 ) ) ;
#204 = CARTESIAN_POINT ( 'NONE',  ( 0.0000000000000000000, -41.92477881419036123, 1.351655838829467937 ) ) ;
#205 = CC_DESIGN_DATE_AND_TIME_ASSIGNMENT ( #289, #77, ( #181 ) ) ;
#206 = EDGE_CURVE ( 'NONE', #179, #129, #97, .T. ) ;
#207 = DIRECTION ( 'NONE',  ( -0.0000000000000000000, -1.000000000000000000, -0.0000000000000000000 ) ) ;
#208 = VECTOR ( 'NONE', #28, 1000.000000000000000 ) ;
#209 = AXIS2_PLACEMENT_3D ( 'NONE', #195, #278, #57 ) ;
#210 = CARTESIAN_POINT ( 'NONE',  ( 5.510910596163089556E-15, 0.0000000000000000000, 45.00000000000000000 ) ) ;
#211 = APPROVAL ( #275, 'BELÝRTÝLMEMÝÞ' ) ;
#212 = PERSON_AND_ORGANIZATION ( #101, #17 ) ;
#213 = CALENDAR_DATE ( 2019, 16, 12 ) ;
#214 = PERSON_AND_ORGANIZATION_ROLE ( 'design_supplier' ) ;
#215 = MANIFOLD_SOLID_BREP ( 'Döndür1', #239 ) ;
#216 = CC_DESIGN_PERSON_AND_ORGANIZATION_ASSIGNMENT ( #241, #304, ( #282 ) ) ;
#217 = DATE_AND_TIME ( #112, #272 ) ;
#218 = CIRCLE ( 'NONE', #209, 36.79999999999999716 ) ;
#219 = APPROVAL_PERSON_ORGANIZATION ( #187, #186, #45 ) ;
#220 = CC_DESIGN_PERSON_AND_ORGANIZATION_ASSIGNMENT ( #111, #214, ( #282 ) ) ;
#221 = DIRECTION ( 'NONE',  ( 1.000000000000000000, 0.0000000000000000000, -1.224646799147353207E-16 ) ) ;
#222 = DIRECTION ( 'NONE',  ( 0.0000000000000000000, -1.000000000000000000, -0.0000000000000000000 ) ) ;
#223 = AXIS2_PLACEMENT_3D ( 'NONE', #118, #221, #294 ) ;
#224 = CIRCLE ( 'NONE', #223, 126.8004375958748682 ) ;
#225 = CARTESIAN_POINT ( 'NONE',  ( 0.0000000000000000000, 0.0000000000000000000, 0.0000000000000000000 ) ) ;
#226 = FACE_OUTER_BOUND ( 'NONE', #126, .T. ) ;
#227 = FACE_OUTER_BOUND ( 'NONE', #89, .T. ) ;
#228 = VECTOR ( 'NONE', #2, 1000.000000000000000 ) ;
#229 = CC_DESIGN_PERSON_AND_ORGANIZATION_ASSIGNMENT ( #79, #189, ( #44 ) ) ;
#230 = DIRECTION ( 'NONE',  ( 0.0000000000000000000, 0.0000000000000000000, -1.000000000000000000 ) ) ;
#231 = ORIENTED_EDGE ( 'NONE', *, *, #119, .T. ) ;
#232 = DIRECTION ( 'NONE',  ( -0.0000000000000000000, -1.000000000000000000, -0.0000000000000000000 ) ) ;
#233 = AXIS2_PLACEMENT_3D ( 'NONE', #169, #262, #26 ) ;
#234 = CIRCLE ( 'NONE', #233, 45.00000000000000711 ) ;
#235 =( NAMED_UNIT ( * ) SI_UNIT ( $, .STERADIAN. ) SOLID_ANGLE_UNIT ( ) );
#236 = EDGE_LOOP ( 'NONE', ( #103, #174 ) ) ;
#237 = MECHANICAL_CONTEXT ( 'NONE', #43, 'mechanical' ) ;
#238 = PERSON_AND_ORGANIZATION ( #101, #17 ) ;
#239 = CLOSED_SHELL ( 'NONE', ( #182, #193, #167, #152, #96, #91, #148, #261, #255 ) ) ;
#240 = CC_DESIGN_DATE_AND_TIME_ASSIGNMENT ( #163, #260, ( #44 ) ) ;
#241 = PERSON_AND_ORGANIZATION ( #101, #17 ) ;
#242 = APPROVAL_ROLE ( '' ) ;
#243 = LOCAL_TIME ( 14, 41, 9.000000000000000000, #276 ) ;
#244 = CARTESIAN_POINT ( 'NONE',  ( 4.506700220862259290E-15, 0.0000000000000000000, 36.79999999999999716 ) ) ;
#245 = FACE_BOUND ( 'NONE', #133, .T. ) ;
#246 = DIRECTION ( 'NONE',  ( 0.0000000000000000000, 0.0000000000000000000, -1.000000000000000000 ) ) ;
#247 = UNCERTAINTY_MEASURE_WITH_UNIT (LENGTH_MEASURE( 1.000000000000000082E-05 ), #270, 'distance_accuracy_value', 'NONE');
#248 = CARTESIAN_POINT ( 'NONE',  ( 0.0000000000000000000, 84.86845444767860158, 0.0000000000000000000 ) ) ;
#249 = CARTESIAN_POINT ( 'NONE',  ( -1.655300996571338659E-16, -41.92477881419036123, -1.351655838829467937 ) ) ;
#250 = EDGE_CURVE ( 'NONE', #129, #124, #156, .T. ) ;
#251 = DIRECTION ( 'NONE',  ( -0.0000000000000000000, -1.000000000000000000, -0.0000000000000000000 ) ) ;
#252 = CARTESIAN_POINT ( 'NONE',  ( 0.0000000000000000000, 0.0000000000000000000, -45.00000000000000000 ) ) ;
#253 = DIRECTION ( 'NONE',  ( -1.000000000000000000, 0.0000000000000000000, 0.0000000000000000000 ) ) ;
#254 =( NAMED_UNIT ( * ) PLANE_ANGLE_UNIT ( ) SI_UNIT ( $, .RADIAN. ) );
#255 = ADVANCED_FACE ( 'NONE', ( #135 ), #76, .F. ) ;
#256 = CC_DESIGN_APPROVAL ( #186, ( #181 ) ) ;
#257 = CARTESIAN_POINT ( 'NONE',  ( 0.0000000000000000000, 0.0000000000000000000, 0.0000000000000000000 ) ) ;
#258 = CALENDAR_DATE ( 2019, 16, 12 ) ;
#259 = CALENDAR_DATE ( 2019, 16, 12 ) ;
#260 = DATE_TIME_ROLE ( 'classification_date' ) ;
#261 = ADVANCED_FACE ( 'NONE', ( #301 ), #73, .T. ) ;
#262 = DIRECTION ( 'NONE',  ( -0.0000000000000000000, -1.000000000000000000, -0.0000000000000000000 ) ) ;
#263 = CARTESIAN_POINT ( 'NONE',  ( 0.0000000000000000000, 0.0000000000000000000, -36.79999999999999716 ) ) ;
#264 = DIRECTION ( 'NONE',  ( 0.0000000000000000000, 0.0000000000000000000, -1.000000000000000000 ) ) ;
#265 = DIRECTION ( 'NONE',  ( 0.0000000000000000000, 0.0000000000000000000, -1.000000000000000000 ) ) ;
#266 = CARTESIAN_POINT ( 'NONE',  ( 0.0000000000000000000, 0.0000000000000000000, 0.0000000000000000000 ) ) ;
#267 = DIRECTION ( 'NONE',  ( -1.000000000000000000, 0.0000000000000000000, 0.0000000000000000000 ) ) ;
#268 = CARTESIAN_POINT ( 'NONE',  ( 0.0000000000000000000, -41.92477881419036123, 0.0000000000000000000 ) ) ;
#269 = EDGE_CURVE ( 'NONE', #116, #131, #55, .T. ) ;
#270 =( LENGTH_UNIT ( ) NAMED_UNIT ( * ) SI_UNIT ( .MILLI., .METRE. ) );
#271 = PRODUCT ( 'End Cap SDR11_001 117 0140 0090', 'End Cap SDR11_001 117 0140 0090', '', ( #237 ) ) ;
#272 = LOCAL_TIME ( 14, 41, 9.000000000000000000, #305 ) ;
#273 = APPROVAL_STATUS ( 'not_yet_approved' ) ;
#274 = APPROVAL ( #144, 'BELÝRTÝLMEMÝÞ' ) ;
#275 = APPROVAL_STATUS ( 'not_yet_approved' ) ;
#276 = COORDINATED_UNIVERSAL_TIME_OFFSET ( 3, 0, .AHEAD. ) ;
#277 = CARTESIAN_POINT ( 'NONE',  ( 5.510910596163091133E-15, 0.0000000000000000000, 45.00000000000000711 ) ) ;
#278 = DIRECTION ( 'NONE',  ( -0.0000000000000000000, -1.000000000000000000, -0.0000000000000000000 ) ) ;
#279 = CYLINDRICAL_SURFACE ( 'NONE', #191, 36.79999999999999716 ) ;
#280 = CARTESIAN_POINT ( 'NONE',  ( 0.0000000000000000000, 0.0000000000000000000, -45.00000000000000711 ) ) ;
#281 = DIRECTION ( 'NONE',  ( 0.0000000000000000000, 0.0000000000000000000, -1.000000000000000000 ) ) ;
#282 = PRODUCT_DEFINITION_FORMATION_WITH_SPECIFIED_SOURCE ( 'HERHANGÝ', '', #271, .NOT_KNOWN. ) ;
#283 = DIRECTION ( 'NONE',  ( 0.0000000000000000000, 0.0000000000000000000, -1.000000000000000000 ) ) ;
#284 = CARTESIAN_POINT ( 'NONE',  ( 0.0000000000000000000, -41.92477881419036123, 0.0000000000000000000 ) ) ;
#285 = DIRECTION ( 'NONE',  ( 0.0000000000000000000, 0.0000000000000000000, -1.000000000000000000 ) ) ;
#286 = DIRECTION ( 'NONE',  ( -0.0000000000000000000, -1.000000000000000000, -0.0000000000000000000 ) ) ;
#287 = APPLICATION_PROTOCOL_DEFINITION ( 'international standard', 'config_control_design', 1994, #43 ) ;
#288 = PERSON_AND_ORGANIZATION_ROLE ( 'design_owner' ) ;
#289 = DATE_AND_TIME ( #213, #115 ) ;
#290 = SECURITY_CLASSIFICATION_LEVEL ( 'unclassified' ) ;
#291 = APPROVAL_DATE_TIME ( #217, #274 ) ;
#292 = EDGE_CURVE ( 'NONE', #129, #92, #49, .T. ) ;
#293 = EDGE_LOOP ( 'NONE', ( #27, #25, #5, #231 ) ) ;
#294 = DIRECTION ( 'NONE',  ( -1.224646799147353207E-16, 0.0000000000000000000, -1.000000000000000000 ) ) ;
#295 = DIRECTION ( 'NONE',  ( 0.0000000000000000000, 0.0000000000000000000, -1.000000000000000000 ) ) ;
#296 = DIRECTION ( 'NONE',  ( -0.0000000000000000000, -1.000000000000000000, -0.0000000000000000000 ) ) ;
#297 = CYLINDRICAL_SURFACE ( 'NONE', #145, 45.00000000000000000 ) ;
#298 = CYLINDRICAL_SURFACE ( 'NONE', #123, 45.00000000000000000 ) ;
#299 = CC_DESIGN_SECURITY_CLASSIFICATION ( #44, ( #282 ) ) ;
#300 = FACE_OUTER_BOUND ( 'NONE', #1, .T. ) ;
#301 = FACE_OUTER_BOUND ( 'NONE', #83, .T. ) ;
#302 = DIRECTION ( 'NONE',  ( 0.0000000000000000000, 0.0000000000000000000, -1.000000000000000000 ) ) ;
#303 = PERSON_AND_ORGANIZATION_ROLE ( 'creator' ) ;
#304 = PERSON_AND_ORGANIZATION_ROLE ( 'creator' ) ;
#305 = COORDINATED_UNIVERSAL_TIME_OFFSET ( 3, 0, .AHEAD. ) ;
#306 = EDGE_CURVE ( 'NONE', #92, #3, #106, .T. ) ;
#307 = LOCAL_TIME ( 14, 41, 9.000000000000000000, #161 ) ;
ENDSEC;
END-ISO-10303-21;
